首页 吉他商城 吉他谱视频 所有吉他谱 吉他图谱 GTP谱 吉他TXT谱 吉他谱搜索 用户中心
热门吉他谱 吉他谱专题 视频教学 木吉他学习 电吉他学习 音乐学习 歌手订阅 吉他软件 手机版
晴天-带前奏吉他谱首页 >> 吉他曲谱 >> 周杰伦吉他谱
扫一扫 用手机看谱

  Em7     Cadd9(no5)          G5               D(no5)
|---------------------------|-------------------------|
|-----3-----------3---------|-----3--------3-----3----|
|---0---0-----------0-------|---0---0--------------0--|
|-2---------0h2-------------|-------------------------|
|---------3-----------------|-------------------------|
|---------------------------|-3----------3-----2------|

  Em7     Cadd9(no5)          G5               D(no5)
|---------------------------|-------------------------|
|-----3-----------3---------|-----3--------3-----3----|
|---0---------------0-------|---0---0--------------0--|
|-------2---0h2-------------|-------------------------|
|---------3-----------------|-------------------------|
|-0-------------------------|-3----------3-----2------|


(Struming)
Intro:
Em7  Cadd9(no5)  G  Dsus4 D   x2


Em7   Cadd9(no5)  G     Dsus4  D
 故事的小黃花     從出生那年就飄著 
Em7   Cadd9(no5)  G     Dsus4    D
 童年的盪鞦韆     隨記憶一直晃到現在 
Em7                         Cadd9(no5)
 ㄖㄨㄟ ㄙㄡ ㄙㄡ ㄒ一 ㄉㄡ ㄒ一 
                   G                      Dsus4              D
 ㄌㄚ ㄙㄡ ㄌㄚ ㄒ一 ㄒ一 ㄒ一 ㄒ一 ㄌㄚ ㄒ一 ㄌㄚ ㄙㄡ 
Em7     Cadd9(no5)  G      Dsus4  D
吹著前奏望著天空 我想起花瓣試著掉落


  Em7            Cadd9(no5)   G ---------
為妳翹課的那一天 花落的那一天          *
             Dsus4  D     Em7           B
教室的那一間 我怎麼看不見              R
          Cadd9(no5)       G  Dsus4 D   I
消失的下雨天 我好想再淋一遍            D
        Em7     Cadd9(no5)  G           G
沒想到失去的勇氣我還留著                E
Dsus4   D     Em7     Cadd9(no5)  D     *
好想再問一遍 妳會等待還是離      開-----

G               Em     G6(no5)    -------
刮風這天 我試過握著妳手                *
     Cadd9  D             G      G7     C
但偏偏     雨漸漸 大到我看妳不見 
B7     B        Em     G6(no5)          H
還要多久 我才能在妳身邊
    Cadd9           Am      Cadd9  D    O
等待放晴的那天 也許\我會比較好一   點 
                                        R
G               Em     G6(no5)
從前從前 有個人愛妳很久                U
     Cadd9  D             G      G7
但偏偏     風漸漸 把距離吹得好遠      S
B7     B        Em     G6(no5)          *
好不容易 又能再多愛一天                *
  Cadd9           Am7     D             *
但故事的最後妳好像還是說了 拜拜----------


For repeat to bridge,
G Cadd9 Am7 Cadd9 D  x1

Ending (Rap):
G Cadd9 Am7 Cadd9 D  x2


*(E1,B2,G3,D4,A5,E6):
Em7        = 030220
Cadd9(no5) = 030230
G5         = 030003
D(no5)     = 030002
Dsus4      = 332000
G6(no5)    = 300220
Cadd9      = 330230
此歌说明:献给我最爱的人,鲁斌
          希望她的心情能像晴天一样美丽


发布于: 2008年3月23日