首页 吉他商城 吉他谱视频 所有吉他谱 吉他图谱 GTP谱 吉他TXT谱 吉他谱搜索 用户中心
热门吉他谱 吉他谱专题 视频教学 木吉他学习 电吉他学习 音乐学习 歌手订阅 吉他软件 手机版
手嶌葵 - Calling you 弹唱谱吉他谱首页 >> 吉他曲谱 >> 手嶌葵吉他谱
扫一扫 用手机看谱
本曲原唱为 Jeff Buckley
Fig. 1:
                                                               
E||----------------------|----------------------|----------------------|----------------------||
B||------------------6---|-----------------6----|-----------------6----|-----------------6----||
G||-------------3--------|------------3---------|------------3---------|------------3---------||
D||-------7--------------|-------7--------------|-------7--------------|-------5--------------||
A||--5-------------------|--6-------------------|----------------------|--3-------------------||
E||----------------------|----------------------|--3-------------------|----------------------||



Fig. 2:
                                           
E||-----------6------------|-----------5------------|
B||--------4---------------|--------6---------------|
G||-----5------------------|-----5------------------|
D||--4---------------------|------------------------|
A||------------------------|--6---------------------|
E||------------------------|------------------------|


                                                                  
--------------4------------|--------------3---|--------------6---|
----------6----------------|----------3-------|----------8-------|
------5--------------------|------4-----------|------7-----------|
---------------------------|------------------|------------------|
--5------------------------|------------------|--7---------------|
---------------------------|--3---------------|------------------|


                                                                            
--------------5---|--------------4---|--------------3---|
----------5-------|----------6-------|----------3-------|
------6-----------|------5-----------|------4-----------|
------------------|------------------|------------------|
------------------|--5---------------|------------------|
--5---------------|------------------|--3---------------|


For Figure 3, play this: (dont play in fig. 2)

----------------2-|--1----|--9-----9----9---|--8---|--x--|
-------------4----|--1----|--9-----9----9---|--8---|--x--|
---------3--------|--2----|--10----11---10--|--9---|--8--|
------------------|--3----|--11----11---11--|--10--|--7--|
---3--------------|--3----|--11----11---11--|--10--|--8--|
------------------|--1----|--9-----9----9---|--8---|--x--|


Intro (Fig. 1)
Verse (Fig. 1):
A desert road from Vegas to nowhere
Someplace better than where you`ve been
A coffe machine that needs some fixin`
In a little cafe just around the bend


Chorus (Fig. 2):
I am calling you
Can`t you hear me?
I am calling you

Verse (Fig. 1):
A hot dry wind blows right through me
The baby`s crying so I can`t sleep
But we both know the change is coming
Come in closer, sweet release


Chorus (Fig. 2 + 3):
I am calling you
Can`t you hear me?
I am calling you

Bridge:
Ohhhh ohhh ohh这里的和弦是 #C 和 #Dm

Chorus (Fig. 2):
I am calling you
Can't you hear me?
I am calling you

Verse (Fig. 1):
A desert road from Vegas to nowhere
Someplace better than where you`ve been
A coffe machine that needs some fixin`
In a little cafe just around the bend

Verse (Fig. 1):
A hot dry wind blows right through me
The baby`s crying so I can`t sleep
But we both know the change is coming
Come in closer, sweet release

Chorus (Fig. 2):
I am calling you
Can't you hear me?
I am calling you


发布于: 2020年7月31日